musicas.mus.br

Letras de músicas - letra de música - letra da música - letras e cifras - letras traduzidas - letra traduzida - lyrics - paroles - lyric - canciones - BOYS DON'T CRY - COMUNIDADE NIN-JITSU - música e letra

Utilize o abecedário abaixo para abrir as páginas de letras dos artistas

A B C D E F G H I J K L M N O P Q R S T U V W X Y Z

Boys Don't Cry letra



Violao 1 toca estes acordes enquanto o violao 2 toca o solo.
A Bm C#m D
e ----------------------------------------
b -----------------------7-9-10-7---------
g ---6-6-7-9-6-6-7-9-9-9----------9-8-(6)-
d ---------------------------------------- 2X
a ----------------------------------------
e ----------------------------------------

(ritmo reegae )
A Bm C#m D
JUMP!

rastaforay...

A Bm C#m D
trifin one minutes to dye loving my piece and my beer

tipitipitipi siiiiiiines u thinking my love is so clear

C#m Bm C#m Bm
cai to love about it faces is sliping tonight night

just my self in tramanda like in the peple to try

REFRAO
A Bm C#m D
cause boys dont cry
A Bm C#m D
boys dont cry

2 verso
A Bm C#m D
my alias...

C#m Bm C#m Bm
cupi cupi cupi cupieeee this is my edabawey
cupi cupi cupi cupieeee this is my new xerere

REFRAO

3 verso(acoders como no primeiro!)
unforget juss lossmy lynos...

REFRAO

INTRO

C#m Bm C#m Bm
cai to love about it faces is sliping tonight night
just my self in tramanda like in the peple to try

C#m Bm C#m Bm
cupi cupi cupi cupieeee this is my edabawey
cupi cupi cupi cupieeee this is my new xerere

A Bm C#m D
cause boys dont cry
A Bm C#m D
boys dont cry
(esmokle myruana,esmokle myruana,esmokle myruana),
boys dont cry

(esmokle myruana,)
boys dont cry
myruana

INTRO

ACORDES USADOS
A Bm C#m D
e:-------2----4----2----
B:--2----3----5----3----
G:--2----4----6----2----
D:--2----4----6---------
A:-------2----4---------
E:-------2----4---------

___________________________________

Comunidade Nin-Jitsu - Letras

©2003 - 2018 - musicas.mus.br